  0
SECTION
  2
HEADER
  9
$ACADVER
  1
AC1009
  9
$INSBASE
 10
664.0383332988434
 20
536.5207519023682
 30
0.0
  9
$EXTMIN
 10
664.0092972251105
 20
536.5207519023682
 30
0.0
  9
$EXTMAX
 10
677.75405842888
 20
553.758571767171
 30
0.0
  9
$LIMMIN
 10
-0.1060231145706343
 20
0.3456632898907824
  9
$LIMMAX
 10
419.5117558577734
 20
297.0066983923184
  9
$ORTHOMODE
 70
     1
  9
$REGENMODE
 70
     0
  9
$FILLMODE
 70
     1
  9
$QTEXTMODE
 70
     0
  9
$MIRRTEXT
 70
     0
  9
$DRAGMODE
 70
     2
  9
$LTSCALE
 40
1.0
  9
$OSMODE
 70
     0
  9
$ATTMODE
 70
     2
  9
$TEXTSIZE
 40
3.5
  9
$TRACEWID
 40
0.1
  9
$TEXTSTYLE
  7
STANDARD
  9
$CLAYER
  8
4AN
  9
$CELTYPE
  6
BYLAYER
  9
$CECOLOR
 62
   256
  9
$DIMSCALE
 40
1.0
  9
$DIMASZ
 40
2.5
  9
$DIMEXO
 40
1.0
  9
$DIMDLI
 40
8.0
  9
$DIMRND
 40
0.0
  9
$DIMDLE
 40
0.0
  9
$DIMEXE
 40
2.0
  9
$DIMTP
 40
0.1
  9
$DIMTM
 40
0.1
  9
$DIMTXT
 40
3.5
  9
$DIMCEN
 40
2.0
  9
$DIMTSZ
 40
0.0
  9
$DIMTOL
 70
     0
  9
$DIMLIM
 70
     0
  9
$DIMTIH
 70
     0
  9
$DIMTOH
 70
     0
  9
$DIMSE1
 70
     0
  9
$DIMSE2
 70
     0
  9
$DIMTAD
 70
     1
  9
$DIMZIN
 70
     8
  9
$DIMBLK
  1

  9
$DIMASO
 70
     1
  9
$DIMSHO
 70
     1
  9
$DIMPOST
  1

  9
$DIMAPOST
  1

  9
$DIMALT
 70
     0
  9
$DIMALTD
 70
     2
  9
$DIMALTF
 40
25.39999999999999
  9
$DIMLFAC
 40
1.0
  9
$DIMTOFL
 70
     1
  9
$DIMTVP
 40
0.0
  9
$DIMTIX
 70
     0
  9
$DIMSOXD
 70
     0
  9
$DIMSAH
 70
     0
  9
$DIMBLK1
  1

  9
$DIMBLK2
  1

  9
$DIMSTYLE
  2
*UNNAMED
  9
$DIMCLRD
 70
   256
  9
$DIMCLRE
 70
   256
  9
$DIMCLRT
 70
     2
  9
$DIMTFAC
 40
0.71
  9
$DIMGAP
 40
1.5
  9
$LUNITS
 70
     2
  9
$LUPREC
 70
     3
  9
$SKETCHINC
 40
0.1
  9
$FILLETRAD
 40
0.15
  9
$AUNITS
 70
     0
  9
$AUPREC
 70
     1
  9
$MENU
  1

  9
$ELEVATION
 40
0.0
  9
$PELEVATION
 40
0.0
  9
$THICKNESS
 40
0.0
  9
$LIMCHECK
 70
     0
  9
$BLIPMODE
 70
     0
  9
$CHAMFERA
 40
2.5
  9
$CHAMFERB
 40
2.5
  9
$SKPOLY
 70
     1
  9
$TDCREATE
 40
2449329.440948611
  9
$TDUPDATE
 40
2449394.635541898
  9
$TDINDWG
 40
0.0012015046
  9
$TDUSRTIMER
 40
0.0012015046
  9
$USRTIMER
 70
     1
  9
$ANGBASE
 50
0.0
  9
$ANGDIR
 70
     0
  9
$PDMODE
 70
     3
  9
$PDSIZE
 40
0.0
  9
$PLINEWID
 40
0.0
  9
$COORDS
 70
     2
  9
$SPLFRAME
 70
     0
  9
$SPLINETYPE
 70
     6
  9
$SPLINESEGS
 70
     8
  9
$ATTDIA
 70
     1
  9
$ATTREQ
 70
     1
  9
$HANDLING
 70
     0
  9
$HANDSEED
  5
B5D6
  9
$SURFTAB1
 70
     6
  9
$SURFTAB2
 70
     6
  9
$SURFTYPE
 70
     6
  9
$SURFU
 70
     6
  9
$SURFV
 70
     6
  9
$UCSNAME
  2

  9
$UCSORG
 10
0.0
 20
0.0
 30
0.0
  9
$UCSXDIR
 10
1.0
 20
0.0
 30
0.0
  9
$UCSYDIR
 10
0.0
 20
1.0
 30
0.0
  9
$PUCSNAME
  2

  9
$PUCSORG
 10
0.0
 20
0.0
 30
0.0
  9
$PUCSXDIR
 10
1.0
 20
0.0
 30
0.0
  9
$PUCSYDIR
 10
0.0
 20
1.0
 30
0.0
  9
$USERI1
 70
     0
  9
$USERI2
 70
     3
  9
$USERI3
 70
    15
  9
$USERI4
 70
     0
  9
$USERI5
 70
     0
  9
$USERR1
 40
1.0
  9
$USERR2
 40
1.0
  9
$USERR3
 40
0.0
  9
$USERR4
 40
1.0
  9
$USERR5
 40
0.0
  9
$WORLDVIEW
 70
     5
  9
$SHADEDGE
 70
     3
  9
$SHADEDIF
 70
    70
  9
$TILEMODE
 70
     1
  9
$MAXACTVP
 70
     4
  9
$PINSBASE
 10
0.0
 20
0.0
 30
0.0
  9
$PLIMCHECK
 70
     0
  9
$PEXTMIN
 10
1.000000000000000E+20
 20
1.000000000000000E+20
 30
1.000000000000000E+20
  9
$PEXTMAX
 10
-1.000000000000000E+20
 20
-1.000000000000000E+20
 30
-1.000000000000000E+20
  9
$PLIMMIN
 10
0.0
 20
0.0
  9
$PLIMMAX
 10
12.0
 20
12.0
  9
$UNITMODE
 70
     0
  9
$VISRETAIN
 70
     0
  9
$PLINEGEN
 70
     0
  9
$PSLTSCALE
 70
     0
  9
$TREEDEPTH
 70
  3020
  9
$DWGCODEPAGE
  3
undefined
  0
ENDSEC
  0
SECTION
  2
TABLES
  0
TABLE
  2
VPORT
 70
     2
  0
VPORT
  2
*ACTIVE
 70
     0
 10
0.0
 20
0.0
 11
1.0
 21
1.0
 12
675.9241722138357
 22
545.838040882341
 13
0.0
 23
0.0
 14
7.0
 24
7.0
 15
10.0
 25
10.0
 16
0.0
 26
0.0
 36
1.0
 17
0.0
 27
0.0
 37
0.0
 40
18.63457795994549
 41
1.275675675675675
 42
50.0
 43
0.0
 44
0.0
 50
0.0
 51
0.0
 71
     0
 72
   100
 73
     1
 74
     0
 75
     0
 76
     0
 77
     0
 78
     0
  0
ENDTAB
  0
TABLE
  2
LTYPE
 70
     2
  0
LTYPE
  2
CONTINUOUS
 70
    64
  3
Solid line
 72
    65
 73
     0
 40
0.0
  0
LTYPE
  2
GEN
 70
    64
  3
----------------------
 72
    65
 73
     2
 40
10000000000.0
 49
0.0
 49
10000000000.0
  0
ENDTAB
  0
TABLE
  2
LAYER
 70
     4
  0
LAYER
  2
0
 70
     0
 62
     7
  6
GEN
  0
LAYER
  2
ITEM_50
 70
    64
 62
     7
  6
CONTINUOUS
  0
LAYER
  2
ITEM_HILFE
 70
    64
 62
     3
  6
CONTINUOUS
  0
LAYER
  2
4AN
 70
     0
 62
     3
  6
CONTINUOUS
  0
ENDTAB
  0
TABLE
  2
STYLE
 70
     1
  0
STYLE
  2
STANDARD
 70
     0
 40
0.0
 41
1.0
 50
0.0
 71
     0
 42
3.5
  3
GENISO
  4

  0
ENDTAB
  0
TABLE
  2
VIEW
 70
     0
  0
ENDTAB
  0
TABLE
  2
UCS
 70
     0
  0
ENDTAB
  0
TABLE
  2
APPID
 70
     1
  0
APPID
  2
ACAD
 70
    64
  0
ENDTAB
  0
TABLE
  2
DIMSTYLE
 70
     0
  0
ENDTAB
  0
ENDSEC
  0
SECTION
  2
BLOCKS
  0
ENDSEC
  0
SECTION
  2
ENTITIES
  0
LINE
  8
ITEM_50
 10
664.3329185021162
 20
552.7616933336012
 30
0.0
 11
664.3356636964452
 21
549.4563114456233
 31
0.0
  0
LINE
  8
ITEM_50
 10
672.3346765941178
 20
551.9291294017098
 30
0.0
 11
672.3346765941178
 21
549.9291294017099
 31
0.0
  0
POINT
  8
ITEM_HILFE
 10
668.3346765941178
 20
553.4291294017098
 30
0.0
  0
POINT
  8
ITEM_HILFE
 10
668.3346765941178
 20
548.8650797218542
 30
0.0
  0
ARC
  8
ITEM_50
 10
672.4837276896302
 20
548.1635855332579
 30
0.0
 40
0.15
 50
90.0
 51
179.9524145717026
  0
ARC
  8
ITEM_50
 10
672.484801224239
 20
549.4561868672776
 30
0.0
 40
0.15
 50
179.9524145717041
 51
270.0
  0
ARC
  8
ITEM_50
 10
672.492131721857
 20
549.1661868672777
 30
0.0
 40
0.14
 50
359.95241457169
 51
90.0
  0
ARC
  8
ITEM_50
 10
672.4915398903509
 20
548.4535855332578
 30
0.0
 40
0.14
 50
270.0
 51
359.9524145716903
  0
ARC
  8
ITEM_50
 10
664.1986891469366
 20
548.1735855332578
 30
0.0
 40
0.14
 50
0.0
 51
90.0
  0
ARC
  8
ITEM_50
 10
664.1789250820659
 20
548.4535855332578
 30
0.0
 40
0.14
 50
180.0475854283071
 51
270.0
  0
ARC
  8
ITEM_50
 10
664.1783332505597
 20
549.1661868672775
 30
0.0
 40
0.14
 50
90.0
 51
180.0475854283096
  0
ARC
  8
ITEM_50
 10
664.1856637481778
 20
549.4561868672776
 30
0.0
 40
0.15
 50
270.0
 51
0.047585428297745
  0
LINE
  8
ITEM_50
 10
669.4397982606166
 20
541.7557532067074
 30
0.0
 11
667.2306667118006
 21
541.7557532067074
 31
0.0
  0
ARC
  8
ITEM_50
 10
669.3305040990006
 20
543.0491642800485
 30
0.0
 40
0.5
 50
270.0
 51
359.9999999999986
  0
ARC
  8
ITEM_50
 10
667.3305040990007
 20
543.0491642800485
 30
0.0
 40
0.5
 50
180.0
 51
269.9999999999978
  0
ARC
  8
ITEM_50
 10
670.8305040990009
 20
552.2206437299929
 30
0.0
 40
1.0
 50
92.09999999999755
 51
180.0
  0
LINE
  8
ITEM_50
 10
669.8305040990006
 20
543.0491642800485
 30
0.0
 11
669.8305040990009
 21
552.2206437299929
 31
0.0
  0
ARC
  8
ITEM_50
 10
665.8305040990007
 20
552.2209904941686
 30
0.0
 40
1.0
 50
0.0
 51
87.89999999999763
  0
LINE
  8
ITEM_50
 10
666.8305040990007
 20
543.0491642800485
 30
0.0
 11
666.8305040990007
 21
552.2209904941686
 31
0.0
  0
LINE
  8
ITEM_50
 10
669.8999608734162
 20
537.5207519023683
 30
0.0
 11
669.8999608734161
 21
536.5207519023682
 31
0.0
  0
LINE
  8
ITEM_50
 10
666.9286872524496
 20
537.5207519023682
 30
0.0
 11
666.9286872524496
 21
536.5207519023682
 31
0.0
  0
LINE
  8
ITEM_50
 10
664.4911016555651
 20
537.5207519023682
 30
0.0
 11
672.3346765941178
 21
537.5207519023682
 31
0.0
  0
LINE
  8
ITEM_50
 10
672.3346765941178
 20
537.5207519023682
 30
0.0
 11
672.3346765941178
 21
536.5207519023682
 31
0.0
  0
LINE
  8
ITEM_50
 10
664.4911016555651
 20
536.5207519023682
 30
0.0
 11
672.3346765941178
 21
536.5207519023682
 31
0.0
  0
LINE
  8
ITEM_50
 10
664.4911016555651
 20
537.5207519023683
 30
0.0
 11
664.4911016555651
 21
536.5207519023682
 31
0.0
  0
ARC
  8
ITEM_50
 10
667.2779178886855
 20
543.0443630218001
 30
0.0
 40
1.289475835085736
 50
180.3540316745254
 51
267.9000000000024
  0
LINE
  8
ITEM_50
 10
665.988466669788
 20
544.8182767352121
 30
0.0
 11
665.988466669788
 21
543.03639537762
 31
0.0
  0
ARC
  8
ITEM_50
 10
665.488466669788
 20
544.8182767352121
 30
0.0
 40
0.5
 50
0.0
 51
90.0
  0
LINE
  8
ITEM_50
 10
664.8164676905832
 20
545.3182767352121
 30
0.0
 11
665.488466669788
 21
545.3182767352121
 31
0.0
  0
ARC
  8
ITEM_50
 10
664.8346412201544
 20
545.813895894863
 30
0.0
 40
0.4959522442636853
 50
180.0475854282904
 51
267.8999999999969
  0
LINE
  8
ITEM_50
 10
664.3386891469366
 20
548.1735855332578
 30
0.0
 11
664.3386891469366
 21
545.8134839954624
 31
0.0
  0
LINE
  8
ITEM_50
 10
664.1789250820659
 20
548.3135855332578
 30
0.0
 11
664.1986891469366
 21
548.3135855332578
 31
0.0
  0
LINE
  8
ITEM_50
 10
664.0383332988434
 20
549.1660705941549
 30
0.0
 11
664.0389251303496
 21
548.4534692601351
 31
0.0
  0
LINE
  8
ITEM_50
 10
664.1856637481778
 20
549.3061868672776
 30
0.0
 11
664.1783332505597
 21
549.3061868672775
 31
0.0
  0
ARC
  8
ITEM_50
 10
664.8288705753342
 20
552.7621052330019
 30
0.0
 40
0.4959522442637616
 50
87.9000000000106
 51
180.0475854283035
  0
LINE
  8
ITEM_50
 10
665.8671478077073
 20
553.2203188879473
 30
0.0
 11
664.8470441049053
 21
553.257724392653
 31
0.0
  0
LINE
  8
ITEM_50
 10
671.8539972818336
 20
545.3182767352121
 30
0.0
 11
671.1819983026289
 21
545.3182767352121
 31
0.0
  0
ARC
  8
ITEM_50
 10
671.1819983026289
 20
544.8182767352121
 30
0.0
 40
0.5
 50
90.0
 51
180.0
  0
LINE
  8
ITEM_50
 10
670.6819983026289
 20
543.03639537762
 30
0.0
 11
670.6819983026289
 21
544.8182767352121
 31
0.0
  0
LINE
  8
ITEM_50
 10
670.7938603902944
 20
553.2199721237716
 30
0.0
 11
671.8234208675115
 21
553.257724392653
 31
0.0
  0
ARC
  8
ITEM_50
 10
671.8415943970827
 20
552.7621052330019
 30
0.0
 40
0.4959522442637401
 50
359.9524145717004
 51
92.10000000000124
  0
LINE
  8
ITEM_50
 10
672.6321316735733
 20
549.166070594155
 30
0.0
 11
672.6315398420672
 21
548.4534692601351
 31
0.0
  0
LINE
  8
ITEM_50
 10
672.4837276896302
 20
548.3135855332578
 30
0.0
 11
672.4915398903509
 21
548.3135855332578
 31
0.0
  0
LINE
  8
ITEM_50
 10
672.484801224239
 20
549.3061868672776
 30
0.0
 11
672.492131721857
 21
549.3061868672776
 31
0.0
  0
LINE
  8
ITEM_50
 10
676.75405842888
 20
548.3135855332577
 30
0.0
 11
677.75405842888
 21
548.3135855332577
 31
0.0
  0
LINE
  8
ITEM_50
 10
676.75405842888
 20
549.3061868672776
 30
0.0
 11
677.75405842888
 21
549.3061868672776
 31
0.0
  0
LINE
  8
ITEM_50
 10
677.75405842888
 20
553.2577243926532
 30
0.0
 11
677.75405842888
 21
541.7556406892266
 31
0.0
  0
LINE
  8
ITEM_50
 10
676.75405842888
 20
553.2577243926532
 30
0.0
 11
676.75405842888
 21
541.7556406892266
 31
0.0
  0
LINE
  8
ITEM_50
 10
676.75405842888
 20
541.7556406892266
 30
0.0
 11
677.75405842888
 21
541.7556406892266
 31
0.0
  0
LINE
  8
ITEM_50
 10
676.75405842888
 20
553.2577243926532
 30
0.0
 11
677.7540584288799
 21
553.2577243926532
 31
0.0
  0
ARC
  8
ITEM_50
 10
671.8415943970826
 20
552.7621052330022
 30
0.0
 40
0.4959522442637401
 50
359.9524145717018
 51
92.10000000000123
  0
ARC
  8
ITEM_50
 10
671.835823752262
 20
545.8138958948633
 30
0.0
 40
0.4959522442637401
 50
272.1000000000016
 51
359.9524145717015
  0
ARC
  8
ITEM_50
 10
669.3925470837316
 20
543.0443630218001
 30
0.0
 40
1.289475835085724
 50
272.1
 51
359.6459683254723
  0
LINE
  8
ITEM_50
 10
672.3337277413627
 20
548.1637101116035
 30
0.0
 11
672.33177582548
 21
545.8134839954625
 31
0.0
  0
LINE
  8
ITEM_50
 10
672.3375464703003
 20
552.7616933336013
 30
0.0
 11
672.3348012759715
 21
549.4563114456233
 31
0.0
  0
LINE
  8
ITEM_50
 10
669.3305040990006
 20
542.5491642800485
 30
0.0
 11
667.3305040990007
 21
542.5491642800485
 31
0.0
  0
ENDSEC
  0
EOF
